Ukulele dla początkujących

"Stary niedźwiedź mocno śpi" na ukulele

Melodia "Stary niedźwiedź mocno śpi" w aranżacji na ukulele sopranowe.

A |------------------|---------3--0-----|
E |---0-0-0-1--------|-0-3-3-3-------3--|
C |-0----------2--0--|------------------|
G |------------------|------------------|

A |-3-2-3-5-3--2--|-5-3-2-0-------|
E |---------------|---------3--0--|
C |---------------|---------------|
G |---------------|---------------|

A |------------------|------------------|
E |---0-0-0-1-----3--|---0-0-0-1--------|
C |-0----------2-----|-0----------2--0--|
G |------------------|------------------|