Ukulele dla początkujących

Anioł pasterzom mówił na ukulele

Kolęda "Anioł pasterzom mówił" w aranżacji na ukulele sopranowe.

A |--------------|--0---------|--3--3--5--5--|--3--2--3---|
E |--1--1--3--3--|-----3--1---|--------------|------------|
C |--------------|------------|--------------|------------|
G |--------------|------------|--------------|------------|

A |--3--3--5---|--3--3--1--1--|--0--0-----|--3--3--1--1--|
E |------------|--------------|--------3--|--------------|
C |------------|--------------|-----------|--------------|
G |------------|--------------|-----------|--------------|

A |--0--0-----|--3---0--1--|--0-----------|
E |--------3--|------------|------3---1---|
C |-----------|------------|--------------|
G |-----------|------------|--------------|
A |--------------|--0---------|
E |--1--1--3--3--|-----3--1---|
C |--------------|------------|
G |--------------|------------|

A |--3--3--5--5--|--3--2--3---|
E |--------------|------------|
C |--------------|------------|
G |--------------|------------|

A |--3--3--5---|--3--3--1--1--|
E |------------|--------------|
C |------------|--------------|
G |------------|--------------|

A |--0--0-----|--3--3--1--1--|
E |--------3--|--------------|
C |-----------|--------------|
G |-----------|--------------|

A |--0--0-----|--3---0--1--|
E |--------3--|------------|
C |-----------|------------|
G |-----------|------------|

A |--0-----------|
E |------3---1---|
C |--------------|
G |--------------|