Ukulele dla początkujących

"Dla Elizy" - Beethoven na ukulele

Melodia "Dla Elizy" w aranżacji na ukulele sopranowe.

A |--7-6-7-6-7---5------|--------0--2--|--------2--3--|
E |------------7---8-5--|-----0--------|--0--4--------|
C |---------------------|--0-----------|--------------|
G |---------------------|--------------|--------------|

A |--7-6-7-6-7---5------|--------0--2--|-----3--2--0--|
E |------------7---8-5--|-----0--------|--0-----------|
C |---------------------|--0-----------|--------------|
G |---------------------|--------------|--------------|

A |--------5--7--|-----8--7--5--|-----7--5-----|-----5--------|
E |--7--8--------|--------------|-----------8--|--0-----8--7--|
C |--------------|--------------|--5-----------|--------------|
G |--------------|--0-----------|--------------|--------------|
A |--7-6-7-6-7---5------|
E |------------7---8-5--|
C |---------------------|
G |---------------------|

A |--------0--2--|--------2--3--|
E |-----0--------|--0--4--------|
C |--0-----------|--------------|
G |--------------|--------------|

A |--7-6-7-6-7---5------|
E |------------7---8-5--|
C |---------------------|
G |---------------------|

A |--------0--2--|-----3--2--0--|
E |-----0--------|--0-----------|
C |--0-----------|--------------|
G |--------------|--------------|

A |--------5--7--|-----8--7--5--|
E |--7--8--------|--------------|
C |--------------|--------------|
G |--------------|--0-----------|

A |-----7--5-----|-----5--------|
E |-----------8--|--0-----8--7--|
C |--5-----------|--------------|
G |--------------|--------------|