Ukulele dla początkujących

Do szopy hej pasterze na ukulele

Kolęda "Do szopy hej pasterze" w aranżacji na ukulele sopranowe.

A |-----------|-------------|-----------|--0---------|
E |•----1--1--|--3-1-0--0---|-----3--3--|----3-1----•|
C |•-0--------|-------------|--0--------|-----------•|
G |-----------|-------------|-----------|------------|

A |-----0--0--|--1-0--------|--1--1--5--|--3-2-3-----|
E |-----------|------3--3---|-----------|------------|
C |--0--------|-------------|-----------|------------|
G |-----------|-------------|-----------|------------|

A |-----0--0--|--1-0--------|-----------|--0---------|
E |-----------|------3--3---|-----3--3--|----3-1-----|
C |--0--------|-------------|-0---------|------------|
G |-----------|-------------|-----------|------------|
A |-----------|-------------|
E |•----1--1--|--3-1-0--0---|
C |•-0--------|-------------|
G |-----------|-------------|

A |-----------|--0---------|
E |-----3--3--|----3-1----•|
C |--0--------|-----------•|
G |-----------|------------|

A |-----0--0--|--1-0--------|
E |-----------|------3--3---|
C |--0--------|-------------|
G |-----------|-------------|

A |--1--1--5--|--3-2-3-----|
E |-----------|------------|
C |-----------|------------|
G |-----------|------------|

A |-----0--0--|--1-0--------|
E |-----------|------3--3---|
C |--0--------|-------------|
G |-----------|-------------|

A |-----------|--0---------|
E |-----3--3--|----3-1-----|
C |-0---------|------------|
G |-----------|------------|