Ukulele dla początkujących

Gdy się Chrystus rodzi na ukulele

Kolęda "Gdy się Chrystus rodzi" w aranżacji na ukulele sopranowe.

A |--------3--0--|--0-----------|--------------|--------------|
E |•-3--0--------|--------3-----|--0--0--1-----|-------------•|
C |•-------------|--------------|-----------2--|--2----0-----•|
G |--------------|--------------|--------------|--------------|

A |--------------|--------------|--------------|--------------|
E |--------1-----|--0--0--3--0--|--------1-----|--0--0--3--0--|
C |--2--2-----2--|--------------|--2--2-----2--|--------------|
G |--------------|--------------|--------------|--------------|

A |--------------|--0---0--0----|--2---2--2----|--3-----0-----|
E |--3---3--3----|--------------|--------------|-----3-----1--|
C |--------------|--------------|--------------|--------------|
G |--------------|--------------|--------------|--------------|

A |--------------|--------------|
E |--0-----------|--------------|
C |--------2-----|--0-----------|
G |--------------|--------------|
A |--------3--0--|--0-----------|
E |•-3--0--------|--------3-----|
C |•-------------|--------------|
G |--------------|--------------|

A |--------------|--------------|
E |--0--0--1-----|-------------•|
C |-----------2--|--2----0-----•|
G |--------------|--------------|

A |--------------|--------------|
E |•-------1-----|--0--0--3--0-•|
C |•-2--2-----2--|-------------•|
G |--------------|--------------|

A |--------------|--0---0--0----|
E |--3---3--3----|--------------|
C |--------------|--------------|
G |--------------|--------------|

A |--2---2--2----|--3-----0-----|
E |--------------|-----3-----1--|
C |--------------|--------------|
G |--------------|--------------|

A |--------------|--------------|
E |--0-----------|--------------|
C |--------2-----|--0-----------|
G |--------------|--------------|