Ukulele dla początkujących

Gdy śliczna Panna na ukulele

Kolęda "Gdy śliczna Panna" w aranżacji na ukulele sopranowe.

A |----------------|----1-0----------|--0---0--------|--------------------|
E |•------0--1--1--|--3-----3--3--1-•|•---3---1--3---|--0--3--1--0--------|
C |•-0--2----------|----------------•|•--------------|--------------2--0--|
G |----------------|-----------------|---------------|--------------------|

A |--0---0----1--|--0--3--1--0----------|
E |----3---1-----|--------------3--1---•|
C |--------------|---------------------•|
G |--------------|----------------------|
A |----------------|----1-0----------|
E |•------0--1--1--|--3-----3--3--1-•|
C |•-0--2----------|----------------•|
G |----------------|-----------------|

A |--0---0-------|--------------------|
E |•---3---1--3--|--0--3--1--0--------|
C |•-------------|--------------2--0--|
G |--------------|--------------------|

A |--0---0----1--|--0--3--1--0--------|
E |----3---1-----|--------------3--1-•|
C |--------------|-------------------•|
G |--------------|--------------------|