Ukulele dla początkujących

"Gdybym miał gitarę" na ukulele

Melodia "Gdybym miał gitarę" w aranżacji na ukulele sopranowe.

A |-------0------0--0--|--------------0--|
E |-----1---3-1--------|--0--3--1--3-----|
C |--2-----------------|-----------------|
G |--------------------|-----------------|

A |-----1--5--3--1--|--5--0--0--------|-----------------0--|
E |--3--------------|-----------3--1--|--0--3--1--1--3-----|
C |-----------------|-----------------|--------------------|
G |-----------------|-----------------|--------------------|

A |-----1--5--3--1--|--5--0--0--------|--------------------|
E |--3--------------|-----------3--1--|--0--3--1--1--0-----|
C |-----------------|-----------------|-----------------2--|
G |-----------------|-----------------|--------------------|
A |------0------0--0--|--------------0-|
E |----1---3-1--------|--0--3--1--3----|
C |-2-----------------|----------------|
G |-------------------|----------------|

A |---1-5-3-1-|-5-0-0----|-----------0-|
E |-3---------|------3-1-|-0-3-1-1-3---|
C |-----------|----------|-------------|
G |-----------|----------|-------------|

A |---1-5-3-1-|-5-0-0----|-------------|
E |-3---------|------3-1-|-0-3-1-1-0---|
C |-----------|----------|-----------2-|
G |-----------|----------|-------------|