Ukulele dla początkujących

Jambalaya (Baju Baj) na ukulele

Piosenka Jambalaya (Baju Baj) w aranżacji na ukulele sopranowe.

A |--------0--------0--|--------------|--------2--2--0----|--0-----------|
E |--0--3-----0--3-----|--3--0--3-----|--3--3----------3--|-----3--3--0--|
C |--------------------|-----------2--|-------------------|--------------|
G |--------------------|--------------|-------------------|--------------|

A |--3--3--3--0-----3--|--0-----------|--------2--2--0-----0--|--------------|
E |--------------3-----|-----3--3-----|--3-3-3----------3-----|--3--0--------|
C |--------------------|-----------2--|-----------------------|--------2--0--|
G |--------------------|--------------|-----------------------|--------------|

A |--7--7--7--3--0--3--|--0-----------|------2-2--2-0------|--0-----------|
E |--------------------|-----3--3-----|--3-3----------3-3--|-----3--3--0--|
C |--------------------|-----------2--|--------------------|--------------|
G |--------------------|--------------|--------------------|--------------|

A |--3--3--3--0-----3--|--0-----------|--------2--2--0-----0--|--------------|
E |--------------3-----|-----3--3-----|--3-3-3----------3-----|--3--0--------|
C |--------------------|-----------2--|-----------------------|--------2--0--|
G |--------------------|--------------|-----------------------|--------------|
A |--------0--------0--|--------------|
E |--0--3-----0--3-----|--3--0--3-----|
C |--------------------|-----------2--|
G |--------------------|--------------|

A |--------2--2--0----|--0-----------|
E |--3--3----------3--|-----3--3--0--|
C |-------------------|--------------|
G |-------------------|--------------|

A |--3--3--3--0-----3--|--0-----------|
E |--------------3-----|-----3--3-----|
C |--------------------|-----------2--|
G |--------------------|--------------|

A |--------2--2--0---0-|--------------|
E |--3-3-3---------3---|--3--0--------|
C |--------------------|--------2--0--|
G |--------------------|--------------|

A |--7--7--7--3--0--3--|--0-----------|
E |--------------------|-----3--3-----|
C |--------------------|-----------2--|
G |--------------------|--------------|

A |------2-2--2-0------|--0-----------|
E |--3-3----------3-3--|-----3--3--0--|
C |--------------------|--------------|
G |--------------------|--------------|

(tu zagraj raz jeszcze czerwony fragment)

Chwyty: C G, bicie wyspiarskie, czyli: ▼ ▼ ▲   ▲ ▼ ▲

  C
A |---|---|-3-|
E |---|---|---|
C |---|---|---|
G |---|---|---|
  G
A |---|-2-|---|
E |---|---|-3-|
C |---|-1-|---|
G |---|---|---|