Ukulele dla początkujących

Kaczuszki na ukulele

Melodia "Kaczuszki" w aranżacji na ukulele sopranowe.

A |-----0-0-------|-----0-0-------|-----0-0-3--2-|--2--0--------|
E |-3-3-----0-0-3-|-3-3-----0-0-3-|-3-3----------|--------3--1--|
C |---------------|---------------|--------------|--------------|
G |---------------|---------------|--------------|--------------|

A |---------------|---------------|---------2--0-|--0-----------|
E |-1-1-3-3-----1-|-1-1-3-3-----1-|-1-1-3-3------|-----3--1--0--|
C |---------2-2---|---------2-2---|--------------|--------------|
G |---------------|---------------|--------------|--------------|

A |-----0-0-------|-----0-0-------|-----0-0-3--2-|--2--0--------|
E |-3-3-----0-0-3-|-3-3-----0-0-3-|-3-3----------|--------3--1--|
C |---------------|---------------|--------------|--------------|
G |---------------|---------------|--------------|--------------|

A |---------------|---------------|---------2--3-|--0-----------|
E |-1-1-3-3-----1-|-1-1-3-3-----1-|-1-1-3-3------|-----3--0-----|
C |---------2-2---|---------2-2---|--------------|-----------0--|
G |---------------|---------------|--------------|--------------|

A |---------------|-7--5--5--3---|---------------|-5--3--2---|
E |-3--2--1--0--3-|--------------|-3--2--1--0--3-|-----------|
C |---------------|--------------|---------------|-----------|
G |---------------|--------------|---------------|-----------|

A |-0-------------|-5--3--3--2---|-5--5--3--3--2-|-2--3--5--3-|-0----------|
E |----3--2--1--3-|--------------|---------------|------------|----3--0----|
C |---------------|--------------|---------------|------------|----------0-|
G |---------------|--------------|---------------|------------|------------|
A |-----0-0-------|-----0-0-------|
E |-3-3-----0-0-3-|-3-3-----0-0-3-|
C |---------------|---------------|
G |---------------|---------------|

A |-----0-0-3--2-|--2--0--------|
E |-3-3----------|--------3--1--|
C |--------------|--------------|
G |--------------|--------------|

A |---------------|---------------|
E |-1-1-3-3-----1-|-1-1-3-3-----1-|
C |---------2-2---|---------2-2---|
G |---------------|---------------|

A |---------2--0-|--0-----------|
E |-1-1-3-3------|-----3--1--0--|
C |--------------|--------------|
G |--------------|--------------|

A |-----0-0-------|-----0-0-------|
E |-3-3-----0-0-3-|-3-3-----0-0-3-|
C |---------------|---------------|
G |---------------|---------------|

A |-----0-0-3--2-|--2--0--------|
E |-3-3----------|--------3--1--|
C |--------------|--------------|
G |--------------|--------------|

A |---------------|---------------|
E |-1-1-3-3-----1-|-1-1-3-3-----1-|
C |---------2-2---|---------2-2---|
G |---------------|---------------|

A |---------2--3-|--0-----------|
E |-1-1-3-3------|-----3--0-----|
C |--------------|-----------0--|
G |--------------|--------------|

A |---------------|-7--5--5--3---|
E |-3--2--1--0--3-|--------------|
C |---------------|--------------|
G |---------------|--------------|

A |---------------|-5--3--2---|
E |-3--2--1--0--3-|-----------|
C |---------------|-----------|
G |---------------|-----------|

A |-0-------------|-5--3--3--2---|
E |----3--2--1--3-|--------------|
C |---------------|--------------|
G |---------------|--------------|

A |-5-5-3-3-2-2-3-5-3-|-0----------|
E |-------------------|----3--0----|
C |-------------------|----------0-|
G |-------------------|------------|