Ukulele dla początkujących

Mazurek Dąbrowskiego na ukulele

Hymn Polski "Mazurek Dąbrowskiego" w aranżacji na ukulele sopranowe.

A |------------|------0--------|--------------|----------|
E |--0-1-3--3--|--3-0---3-1-0--|-------3---1--|--1--0----|
C |------------|---------------|--2--2--------|----------|
G |------------|---------------|--------------|----------|

A |------------|------0--------|--------------|----------|
E |--0-1-3--3--|--3-0---3-1-0--|-------3------|----------|
C |------------|---------------|--2--2-----2--|--2--0----|
G |------------|---------------|--------------|----------|

A |------------|----------|------------0--|--0-------|
E |•--------1--|--1--0----|--1-1-1--1-----|-----3----|
C |•-2--2------|----------|---------------|----------|
G |------------|----------|---------------|----------|

A |------3--2--|--2--0----|--------------|----------|
E |--0-3-------|----------|--3--3--1-----|---------•|
C |------------|----------|-----------2--|--2--0---•|
G |------------|----------|--------------|----------|
A |------------|------0--------|
E |--0-1-3--3--|--3-0---3-1-0--|
C |------------|---------------|
G |------------|---------------|

A |--------------|----------|
E |-------3---1--|--1--0----|
C |--2--2--------|----------|
G |--------------|----------|

A |------------|------0--------|
E |--0-1-3--3--|--3-0---3-1-0--|
C |------------|---------------|
G |------------|---------------|

A |--------------|----------|
E |-------3------|----------|
C |--2--2-----2--|--2--0----|
G |--------------|----------|

A |------------|----------|
E |•--------1--|--1--0----|
C |•-2--2------|----------|
G |------------|----------|

A |------------0--|--0-------|
E |--1-1-1--1-----|-----3----|
C |---------------|----------|
G |---------------|----------|

A |------3--2--|--2--0----|
E |--0-3-------|----------|
C |------------|----------|
G |------------|----------|

A |--------------|----------|
E |--3--3--1-----|---------•|
C |-----------2--|--2--0---•|
G |--------------|----------|