Ukulele dla początkujących

Nie było miejsca dla Ciebie na ukulele

Kolęda "Nie było miejsca dla Ciebie" w aranżacji na ukulele sopranowe.

A |-----------3--3--5--2--2--|-----------2--2--3--0--0--| x2
E |•-0-----0-----------------|--0-----0----------------•|
C |•----3--------------------|-----3-------------------•|
G |--------------------------|--------------------------|

A |--0--3--5--7--7--8--5--5--|--------2--5--5--7--3--3--|
E |--------------------------|--0-----------------------|
C |--------------------------|-----3--------------------|
G |--------------------------|--------------------------|

A |-----------3--3--5--2--2--|-----------2--2--3--0--0--|
E |--0-----0-----------------|--0-----0-----------------|
C |-----3--------------------|-----3--------------------|
G |--------------------------|--------------------------|
A |--------3-3-5-2-2-|-------2-2-3-0-0--|
E |•-0---0-----------|-0---0-----------•|
C |•---3-------------|---3-------------•|
G |------------------|------------------|

A |--0-3-5-7-7-8-5-5-|-----2-5-5-7-3-3--|
E |------------------|-0----------------|
C |------------------|---3--------------|
G |------------------|------------------|

A |--------3-3-5-2-2-|-------2-2-3-0-0--|
E |--0---0-----------|-0---0------------|
C |----3-------------|---3--------------|
G |------------------|------------------|