Ukulele dla początkujących

Oj maluśki na ukulele

Kolęda "Oj maluśki" w aranżacji na ukulele sopranowe.

A |-----0-0-0-0-0-0-0--0---|--0-3-0-----------|
E |-1-3--------------------|--------1--0--3---|
C |------------------------|------------------|
G |------------------------|------------------|

A |------------------------|----1-0-----------|
E |-0-1-3-3-3-3-3-3-3--3---|--3-----0--3--1---|
C |------------------------|------------------|
G |------------------------|------------------|

A |--0--5--3--0--------0---|-----0-----------------|
E |--------------1--3------|--------3-------3--1---|
C |------------------------|--0----------0---------|
G |------------------------|-----------------------|
A |-----0-0-0-0-0-0-0--0---|
E |-1-3--------------------|
C |------------------------|
G |------------------------|

A |--0-3-0-----------|
E |--------1--0--3---|
C |------------------|
G |------------------|

A |------------------------|
E |-0-1-3-3-3-3-3-3-3--3---|
C |------------------------|
G |------------------------|

A |----1-0-----------|
E |--3-----0--3--1---|
C |------------------|
G |------------------|

A |--0--5--3--0--------0---|
E |--------------1--3------|
C |------------------------|
G |------------------------|

A |-----0-----------------|
E |--------3-------3--1---|
C |--0----------0---------|
G |-----------------------|