Ukulele dla początkujących

Panie Janie na ukulele

Melodia "Panie Janie" w aranżacji na ukulele sopranowe.

A |-----0--2-----|-----0--2-----|--2--3--5----|--2--3--5----|
E |--3--------3--|--3--------3--|-------------|-------------|
C |--------------|--------------|-------------|-------------|
G |--------------|--------------|-------------|-------------|

A |--5-7-5-3--2----|--5-7-5-3--2----|-------------|-------------|
E |-------------3--|-------------3--|--3-----3----|--3-----3----|
C |----------------|----------------|-----2-------|-----2-------|
G |----------------|----------------|-------------|-------------|
A |-----0--2-----|-----0--2-----|
E |--3--------3--|--3--------3--|
C |--------------|--------------|
G |--------------|--------------|

A |--2--3--5----|--2--3--5----|
E |-------------|-------------|
C |-------------|-------------|
G |-------------|-------------|

A |--5-7-5-3--2----|--5-7-5-3--2----|
E |-------------3--|-------------3--|
C |----------------|----------------|
G |----------------|----------------|

A |-------------|-------------|
E |--3-----3----|--3-----3----|
C |-----2-------|-----2-------|
G |-------------|-------------|