Ukulele dla początkujących

"Płonie ognisko w lesie" na ukulele

Melodia "Płonie ognisko w lesie" w aranżacji na ukulele sopranowe.

A |---------0--------|-0-------0--------|
E |---1---1----1--1--|---3-2-3----1--1--|
C |-0---0------------|------------------|
G |------------------|------------------|

A |---------0--------|-0-------0--------|
E |---1---1----1-----|---3-2-3----1--1--|
C |-0---0---------0--|------------------|
G |------------------|------------------|

A |--3---3---0---0---|--8---8---3---3---|
E |•-----------------|------------------|
C |•-----------------|------------------|
G |------------------|------------------|

A |-3-1-0-1-3--0--0--|
E |-----------------•|
C |-----------------•|
G |------------------|