Ukulele dla początkujących

Sto lat na ukulele

Melodia "Sto lat" w aranżacji na ukulele sopranowe.

A |--------------|-----0----------|--------------|---------------|
E |--3--0--3--0--|--3----3-1-0-1--|--1-----1-----|--1--3-1-0--0--|
C |--------------|----------------|-----2-----2--|-----------2---|
G |--------------|----------------|--------------|---------------|

A |----------------|-----3-2-0---0--|--2-----2--2--|--3-----------|
E |--3-3-0--3-3-0--|--3--------3----|--------------|--------------|
C |----------------|----------------|--------------|--------------|
G |----------------|----------------|--------------|--------------|
A |--------------|-----0----------|
E |--3--0--3--0--|--3----3-1-0-1--|
C |--------------|----------------|
G |--------------|----------------|

A |--------------|----------------|
E |--1-----1-----|--1--3-1-0---0--|
C |-----2-----2--|-----------2----|
G |--------------|----------------|

A |----------------|-----3-2-0---0--|
E |--3-3-0--3-3-0--|--3--------3----|
C |----------------|----------------|
G |----------------|----------------|

A |--2-----2--2--|--3-----------|
E |--------------|--------------|
C |--------------|--------------|
G |--------------|--------------|