Ukulele dla początkujących

"Stokrotka" na ukulele

Melodia "Stokrotka rosła polna" w aranżacji na ukulele sopranowe.

A |-------7-7-3-3-|-------3-3-2-|
E |-3-0-3---------|-3-0-3-------|
C |---------------|-------------|
G |---------------|-------------|

A |-2-0-0-2-2-0-0-|-0-----0-0---|
E |---------------|---3-3-----3-|
C |---------------|-------------|
G |---------------|-------------|

A |---0-2-3-5-7-3-|-7-5-5-0-2-|
E |-3-------------|-----------|
C |---------------|-----------|
G |---------------|-----------|

A |-3-3-3-3-3-|
E |-----------|
C |-----------|
G |-----------|