Ukulele dla początkujących

W murowanej piwnicy na ukulele

Melodia "W murowanej piwnicy" w aranżacji na ukulele sopranowe.

A |--3-----------|--------------|--3-----------|--------------|
E |-----3--3--1--|--0--1--3-----|-----3--3--1--|--0-----------|
C |--------------|--------------|--------------|-----2--0-----|
G |--------------|--------------|--------------|--------------|

A |--------------|--------------|--------------|--------------|
E |--------0-----|--0--1--3-----|--0--3--3--1--|--0-----------|
C |--0--2-----2--|--------------|--------------|-----2--0-----|
G |--------------|--------------|--------------|--------------|
A |--3-----------|--------------|
E |-----3--3--1--|--0--1--3-----|
C |--------------|--------------|
G |--------------|--------------|

A |--3-----------|--------------|
E |-----3--3--1--|--0-----------|
C |--------------|-----2--0-----|
G |--------------|--------------|

A |--------------|--------------|
E |--------0-----|--0--1--3-----|
C |--0--2-----2--|--------------|
G |--------------|--------------|

A |--------------|--------------|
E |--0--3--3--1--|--0-----------|
C |--------------|-----2--0-----|
G |--------------|--------------|