Ukulele dla początkujących

W żłobie leży na ukulele

Kolęda "W żłobie leży" w aranżacji na ukulele sopranowe.

A |-----------0--2--|--0-----0--2--3--|--2--3--5--3--2--0-----|
E |•-------3--------|-----3-----------|--------------------3-•|
C |•-2--2-----------|-----------------|----------------------•|
G |-----------------|-----------------|-----------------------|

A |--5--2--3--2--|--7--5--3--2--3--|--3--0--2--3--|--5--3--2--0--2--|
E |--------------|-----------------|--------------|-----------------|
C |--------------|-----------------|--------------|-----------------|
G |--------------|-----------------|--------------|-----------------|

A |-----------3--2--0-----|
E |--3--2--0-----------3--|
C |-----------------------|
G |-----------------------|
A |-----------0--2--|--0-----0--2--3--|
E |•-------3--------|-----3-----------|
C |•-2--2-----------|-----------------|
G |-----------------|-----------------|

A |--2--3--5--3--2--0-----| x2
E |--------------------3-•|
C |----------------------•|
G |-----------------------|

A |--5--2--3--2--|--7--5--3--2--3--|
E |--------------|-----------------|
C |--------------|-----------------|
G |--------------|-----------------|

A |--3--0--2--3--|--5--3--2--0--2--|
E |--------------|-----------------|
C |--------------|-----------------|
G |--------------|-----------------|

A |-----------3--2--0-----|
E |--3--2--0-----------3--|
C |-----------------------|
G |-----------------------|