Ukulele dla początkujących

Wlazł kotek na płotek na ukulele

Melodia "Wlazł kotek na płotek" w aranżacji na ukulele sopranowe.

A |---------------|---------------|--------------|
E |---3---0---0---|---1-----------|-----0--3-----|
C |---------------|-------2---2---|--0-----------|
G |---------------|---------------|--------------|

A |---------------|---------------|--------------|
E |---3---0---0---|---1-----------|-----0--------|
C |---------------|-------2---2---|--0-----0-----|
G |---------------|---------------|--------------|
A |---------------|---------------|
E |---3---0---0---|---1-----------|
C |---------------|-------2---2---|
G |---------------|---------------|

A |--------------|---------------|
E |-----0--3-----|---3---0---0---|
C |--0-----------|---------------|
G |--------------|---------------|

A |---------------|--------------|
E |---1-----------|-----0--------|
C |-------2---2---|--0-----0-----|
G |---------------|--------------|